morgaine-scbannerscrazyisonfire.png

Tablatures
Old 04-13-2011, 01:54 PM   #1
io Kukulcan
Protector of México

io Kukulcan's Avatar
 
Join Date: Aug 2009
Location: Northern California
Posts: 2,523
My Mood:
Awards Showcase
5k trainwreck 
Total Awards: 1
Default Tablatures



G|------------------------------------------------------5--5--4---2-2-----|
D|--------5---7---5--------5---7-7---5---------3---5------------0-----5---|
A|--0--0----0---0-----0-0----0----------0--3-3--3---3-3-------------------|
E|------------------------------------------------------------------------|

|---------------------------------------------------------|
|-------------------------------------5---7-7-------------|
|------3---5-----7--7-5-0-3-3-5--0--0---0-----0-----------|
|--3-3---3---3-3------------------------------------------|

|-----------------------------------------------------------|
|-----------------------------------------------------------|
|-----------------------------------------------------------|
|-5-5-5--5-5-5--5-5-5--5-5-5--1--3-1--3-3-1--3-1--3-3-------|


|--------------------------------------------------------------|
|------------3---2-----------2---3-----------------------------|
|--5-5-5-5-5---5---3-3-3-3-3---3---5-5-5-5-3-0------0----0--3--|
|----------------------------------------------1--3----3-------|



io Kukulcan is offline   Reply With Quote

Old 04-13-2011, 03:08 PM   #2
Ayu Sura
Senior Member

Ayu Sura's Avatar
 
Join Date: Aug 2009
Posts: 1,153
Awards Showcase
Cooking Goddess 5k trainwreck 
Total Awards: 2
Default

hahaha are you forcing me to practice my finger picking?

*hides soft, callus-free finges*
__________________
You are wearing Almost All of your Armor.
You are wearing Partially Burnt Exciting Undergarments on your Head.
You are wearing a Tikbalang Ward on your Neck
You are coated with an Encrusted Foul-Smelling, Sparkly Substance.

- excerpt from You Awaken in Razor Hill
Ayu Sura is offline   Reply With Quote
This user agrees. But then, who wouldn't, right?

Old 04-13-2011, 08:44 PM   #3
kita_dawg
The sand in Mulch's vag

kita_dawg's Avatar
 
Join Date: Aug 2009
Posts: 2,607
Awards Showcase
No Fear 
Total Awards: 1
Default

Mulch is bitching about no music or time signature!

He also would like to know what he just played
kita_dawg is offline   Reply With Quote
This user agrees. But then, who wouldn't, right?

Old 04-13-2011, 10:41 PM   #4
io Kukulcan
Protector of México

io Kukulcan's Avatar
 
Join Date: Aug 2009
Location: Northern California
Posts: 2,523
My Mood:
Awards Showcase
5k trainwreck 
Total Awards: 1
Default

io Kukulcan is offline   Reply With Quote
One user says 'MMmmm. Pie':
The following user says thanks:

Old 04-14-2011, 12:11 AM   #5
Phoenix Psaltery
Down to Five Toes

Phoenix Psaltery's Avatar
 
Join Date: Aug 2009
Rez Date: Feb 25, 2005
Location: South Dakota
Posts: 9,736
My Mood:
Awards Showcase
28th 5k trainwreck 
Total Awards: 2
Default

BASS PLAYER JOKES

Did you hear about the bass player who was so depressed about his bad timing that he threw himself behind a train?


Why don't bass players tell blonde jokes?
They don't understand them.


What do you throw a drowning bass player?
His amp.


What's the hardest 3 years of a bass player's life?
Second grade.


How do you get a bass player off your porch?
Pay him for the pizza.


P2
__________________
Genius by birth... slacker by choice.
The indiscriminate use of vulgar language is the linguistic crutch for inarticulate motherfucking sons of bitches.
I can figure the number of millimeters in a light year, but don't ask me to do algebra.
And everything is green and submarine...
Phoenix Psaltery is offline   Reply With Quote
This user laughed so hard that they peed a little:
The following user disagrees:

Old 04-14-2011, 01:17 AM   #6
io Kukulcan
Protector of México

io Kukulcan's Avatar
 
Join Date: Aug 2009
Location: Northern California
Posts: 2,523
My Mood:
Awards Showcase
5k trainwreck 
Total Awards: 1
Default

This thread is for people to post tablatures, damnit!
io Kukulcan is offline   Reply With Quote

Old 04-14-2011, 01:27 AM   #7
23rdDjin
trust... it's everything

23rdDjin's Avatar
 
Join Date: Sep 2009
Location: Everville
Posts: 5,978
Awards Showcase
No Fear 28th 5k trainwreck 
Total Awards: 3
Default

Intro
G|-[5][3]-------------------------------------------|------------------||
D|--------[4]-----[5]-[3]---------------------------|------------------||
A|------------[3]---------[4]-----[5]-[3]-----------|--------------0-2-||
E|----------------------------[3]---------[4]---[7]-|---[12]-----------||

Theme 1
[ 3 ]
G|---[4]-----[5]-------------|---------[4]-|-[4]--------------------||
D|---[5]-[3]-----[4]-----[5]-|---------[4]-|-[5]--------------------||
A|-3-------------[5]-[3]-----|-2(6)--------|--3-----------------0-2-||
E|----------------3----------|------0------|-----[5]--------3-0-----||
T

[ 3 ]
G|---[4]-----[5]-------------|--------[4]--[12]-|--------|-------||
D|---[5]-[3]-----[4]-----[5]-|--------[4]--[9]--|--------|-------||
A|-3-------------[5]-[3]-----|-2(6)--------[9]--|--------|-------||
E|----------------3----------|------0-----------|-11-----|-------||
T

G|--------[4]-[4]----------|--------[4]--[12]-----------||
D|--------[4]-[5]----------|--------[4]--[9]------------||
A|-2(6)--------3-----------|-2(6)--------[9]------------||
E|------0----------[5]-----|------0---------------11----||
T T +

A Tempo
A
G|-[4]-------2--[2]-|-------------[7]-|---------[4]----|-----[7]-----------||
D|-[4]-------2--[2]-|--------[7]--[5]-|--[7]-----------|-----[7]-----------||
A|-[3]-------2--[2]-|--------[5]------|--[5]-----------|-----[9]-----------||
E|------4-4---------|---3-3-----------|------2-------1-|---0------[9]--[7]-||
G

G|-[9]-------------[7]----------|-[9]-------------[7]---------|-[9]-------------[7]----------||
D|-----[9]-----[7]-[9]----------|-----[9]-----[7]-[9]---------|-----[9]-----[7]-[9]----------||
A|---------[7]---------[9]------|---------[7]---------[9]-----|---------[7]---------[9]------||
E|--------------------------[7]-|-------------------------[7]-|--------------------------[7]-||

G|-[9]-------------[7]-----||
D|-----[9]-----[7]-[9]-----||
A|---------[7]---------[7]-||
E|-------------------------||

Theme 2
G|---[7]-------[7]---------|---[7]---------[7]---------|---[7]---------[7]---------||
D|---[5]-[7]---[5]---[7]---|---[5]---[7]---[5]---[7]---|---[5]---[7]---[5]---[7]---||
A|-------[5]---------[5]---|---------[5]---------[5]---|---------[5]---------[5]---||
E|-8---------8-----8-----8-|-7-----7-----7-----7-----7-|-6-----6-----6-----6-----6-||

G|---[7]---------[7]---------||
D|---[5]---[7]---[5]---[7]---||
A|---------[5]---------[5]---||
E|-7-----7-----7-----7-----7-||

G|---[5]---------[7]---------|---[7]---------[7]---------|---[7]---------[7]---------||
D|---[7]---[5]---[5]---[7]---|---[9]---[7]---[5]---[7]---|---[5]---[7]---[5]---[7]---||
A|---------[7]---------[5]---|---------[9]---------[5]---|---------[5]---------[5]---||
E|-8-----8-----8-----8-----8-|-7-----7-----7-----7-----7-|-6-----6-----6-----6-----6-||

G|---[7]-[5]--------[4]-----||
D|---[5]-[7]---[4]----------||
A|-6---------6--------------||
E|----------------------0-3-||

A A A A A A
A A
G|---[7]--6----[7]----6----|---[4]-------------3---|---[7]----6----[7]----6----|---[4]--------------3---||
D|---[5]-[4]---[5]---[4]---|---[5]---[4]---3---3---|---[5]---[4]---[5]---[4]---|---[5]---[4]---3----3---||
A|-------------------------|---------[5]---3-------|---------------------------|---------[5]---3--------||
E|-4---------4-----4-----0-|-3-----3-----3---3---0-|-4-----4-----4-----4-----0-|-3-----3-----3---3----0-||
G# G# A D G# G#
A D

A A A A
G|---[7]----6----[7]----6----|---[4]-------------3---||
D|---[5]---[4]---[5]---[4]---|---[5]---[4]---3---3---||
A|---------------------------|---------[5]---3-------||
E|-4-----4-----4-----4-----0-|-3-----3-----3---3---0-||
G# G# A D

A A A
G|---[7]----6----[7]----6----|---[4]--------3----------||
D|---[5]---[4]---[5]---[4]---|---[5]-[4]----3--[3]-----||
A|-------------------------0-|-3-----[5]--0-1--[3]-0-2-||
E|-4-----4-----4-----4-------|--------3---------1------||
G# G# D

G|---[4]-----[5]-------------|--------[4]-[4]--------------|----[4]-----[5]-------------||
D|---[5]-[3]-----[4]-----[5]-|--------[4]-[5]--------------|----[5]-[3]-----[4]-----[5]-||
A|-3-------------[5]-[3]-----|-2(6)--------3-----------0-2-|--3-------------[5]-[3]-----||
E|----------------3----------|------0---------[5]--3-0-----|-----------------3----------||
T

G|--------[4]-[12]-------|----9(13)------||
D|--------[4]-[9]--------|----9(13)------||
A|-2(6)-------[9]--------|----9(13)------||
E|------0-----------11---|-0-------------||
T T
__________________
Quote:
Originally Posted by nina
is there any thread you dont believe you have a god-given right to fuck up?
Quote:
Originally Posted by Lias
I believe your battle-stance attitude to posting on a free forum is part of your forum issues... After awhile you have to figure that it's not all of the forum owners and poster's that make up the problems you devise for yourself... Floating from forum to forum complaining, insulting the owner, demanding and proclaiming them failures is a very telling pattern of behavior.

Last edited by 23rdDjin; 04-14-2011 at 08:02 PM.
23rdDjin is offline   Reply With Quote
The following user says thanks:

Old 04-14-2011, 03:00 AM   #8
23rdDjin
trust... it's everything

23rdDjin's Avatar
 
Join Date: Sep 2009
Location: Everville
Posts: 5,978
Awards Showcase
No Fear 28th 5k trainwreck 
Total Awards: 3
Default

Intro (played slow) (slide slowly)
G--9--9--9-9--\8--8--8-8--\7--7--7-7--7-----6-6--5----4-4-3-////-9-|
D------------------------------------------------------------------|
A------------------------------------7-7-0---0--5-5----------------|
E-7--7----7--7---7----7--7---7----7-----------------3--3-----------|

(play fast)
G----5h7--7--7--5-4-5---5--4-2-4---4---14-12-11--|
D-7-9---00-00-0-0-0-0-00-0-0-0-0-00-0--0--0--0---|
A------------------------------------------------|
E------------------------------------------------|

G----5h7--7--7--5-4-5---5--4-2-4----4---14-12-11-9-7-9-11-12--|
D-7-9---00-00-0-0-0-0-00-0-0-0-0-00--0--0--0--0--0-0-0-0--0---|
A-------------------------------------------------------------|
E-------------------------------------------------------------|

G-7h9-99-9-9-99-7h9-99-9-9\5h7-77-7-7-77-7-77-7-7-77----|
D-------------------------------------------------------|
A-------------------------------------------------------|
E-------------------------------------------------------|

G-9-99-9-9-99-7h9-99-9-9\5h7-77-7-7-77-------------------|keep your fingers
D-------------------------------------10h12\\\\\\\\\-----|walking as you
A--------------------------------------------------------|slide down the
E--------------------------------------------------------|neck.

Verse
G---------------------------------------------------------------|
D-0-0-3h4-0-00---0-0-3h4-0-00---0-0-3h4-9\----------------------|play
A---------------0--------------0-----------2-0-2-0-2-0--0223344-|twice
E---------------------------------------------------------------|

G----------------5-5-5---3-3-33-3------------|
D--------------------------------------------|
A-5-5-55-5-5-3--------1-----------0-00-0-----|
E--------------------------------------------|

Interlude
G----5h7--7--7--5-4-5---5--4-2-4---4---14-12-11--|
D-7-9---00-00-0-0-0-0-00-0-0-0-0-00-0--0--0--0---|
A------------------------------------------------|
E------------------------------------------------|

G----5h7--7--7--5-4-5---5--4-2-4----4---14-12-11-9-7-9-11-12--|
D-7-9---00-00-0-0-0-0-00-0-0-0-0-00--0--0--0--0--0-0-0-0--0---|
A-------------------------------------------------------------|
E-------------------------------------------------------------|

Verse 2
G---------------------------------------------------|
D-7--5-7--5-7-7--5-7-5-3----------------------4-5---|
A--7-----7-----7--------5--3-5---3-5-5--3-5--7------|
E------------------------5-----5------5-------------|

G--------------------------------------------------|use the same
D-7--5-7--5-7-7--5-7-5--------------12\\\\\\-------|technique as
A--7-----7-----7-------5--3-5---3-5----------------|in the fast
E-----------------------5-----5--------------------|intro

G---------------------------------------------------------------|
D-0-0-3h4-0-00---0-0-3h4-0-00---0-0-3h4-9\----------------------|
A---------------0--------------0-----------2-0-2-0-2-0--0223344-|
E---------------------------------------------------------------|

G----------------5-5-5---3-3-33-3------------|
D--------------------------------------------|
A-5-5-55-5-5-3--------1-----------0-00-0-----|
E--------------------------------------------|

Interlude
G----5h7--7--7--5-4-5---5--4-2-4----4---14-12-11-9-7-9-11-12-14-11-8---|
D-7-9---00-00-0-0-0-0-00-0-0-0-0-00--0--0--0--0--0-0-0-0--0--0--0--0-8-|
A--------------------------------------------------------------------0-|
E----------------------------------------------------------------------|

The Face Off!
G-7h9-99-9-9-99-999-7h9-99-9-9-99-999-7h9-99-9-9-99-999-7h9\\\\\---|
D------------------------------------------------------------------|
A------------------------------------------------------------------|
E------------------------------------------------------------------|

G-------------------------------------|
D-1h2-22-2-2-22-222-1h2-22-2-2-22-222-|repeat til
A-------------------------------------|you hear
E-------------------------------------|different

DIE!!
click
click breakdown
G-------------------------------234- ------2---------|
D-33333333333333333...222222-444---- --3--------3----|
A----------------------------------- ----1----3------|
E----------------------------------- ----------------|
do this while its all west side story

when you're a jet you're a jet all the way
G-----------------------------------------------|
D-----------------------------------------------|
A--8888888888888888888888888888888888888888888--|
E-----------------------------------------------|

when you're a jet let 'em do what they can
G-----------------------------------------------------|
D-----------------------------------------------------|
A--6666666666666666666666666666666666666666666666666--|
E-----------------------------------------------------|

the jets are in gear they're always well respected
G--------------------------------------------------------------|
D--5555555555555555555555555555555555555555555555555----/3-----|
A---------------------------------------------------------3----|
E--------------------------------------------------------------|

you're never alone when compony's expected
G---------------------------------------------------------------|
D--5555555555555555555555555555555555555555555555555------------|
A---------------------------------------------------------------|
E---------------------------------------------------------------|
you're well respected
G-----------------------------------------------------|
D---------3-------------------------------------------|
A----1--5---------------------------------------------|
E--1--------1-----666666666666666666666666666666666---|

when you're a jet
G------------------------------------------|
D------------------------------------------|
A--6--6--6--6-88888888888888888888888888---|
E------------------------------------------|

fin
G------------------|
D------------------|
A---4--------------| !!!!POW!!!!
E------4----6------|

Last edited by 23rdDjin; 04-14-2011 at 08:03 PM.
23rdDjin is offline   Reply With Quote
The following user says thanks:

Old 04-14-2011, 03:10 PM   #9
23rdDjin
trust... it's everything

23rdDjin's Avatar
 
Join Date: Sep 2009
Location: Everville
Posts: 5,978
Awards Showcase
No Fear 28th 5k trainwreck 
Total Awards: 3
Default

and for anyone scratching their heads:


post A:






post B



23rdDjin is offline   Reply With Quote

Old 04-14-2011, 03:51 PM   #10
JohnnyVann
Rocky Mountain Hi! :wave:

JohnnyVann's Avatar
 
Join Date: Jul 2010
Posts: 19,570
My Mood:
Awards Showcase
28th 
Total Awards: 1
Default

Quote:
Originally Posted by 23rdDjin View Post
and for anyone scratching their heads:
I was but that was just an itch
__________________
"The only normal people are the ones you don't know very well"
JohnnyVann is offline   Reply With Quote

Old 04-14-2011, 04:53 PM   #11
Ayu Sura
Senior Member

Ayu Sura's Avatar
 
Join Date: Aug 2009
Posts: 1,153
Awards Showcase
Cooking Goddess 5k trainwreck 
Total Awards: 2
Default

Okay - what do the [] and \ signify? are \ s muted strums?
Ayu Sura is offline   Reply With Quote

Old 04-14-2011, 04:58 PM   #12
23rdDjin
trust... it's everything

23rdDjin's Avatar
 
Join Date: Sep 2009
Location: Everville
Posts: 5,978
Awards Showcase
No Fear 28th 5k trainwreck 
Total Awards: 3
Default

hope this helps. i mostly play by ear (and what a callous that can make!)
Quote:
Tablature Symbols

The numbers don’t really describe the subtle techniques that a guitarist can execute, these are the tablature symbols that represent various techniques.h – hammer on
p – pull off
b – bend string up
r – release bend
/ – slide up
\ – slide down
v – vibrato (sometimes written as ~)
t – right hand tap
s – legato slide
S – shift slide
– natural harmonic
[n] – artificial harmonic
n(n) – tapped harmonic
tr – trill
T – tap TP – trem. picking
PM – palm muting
\n/ – tremolo bar dip; n = amount to dip
\n – tremolo bar down
n/ – tremolo bar up
/n\ – tremolo bar inverted dip
= – hold bend; also acts as connecting device for hammers/pulls
<> – volume swell (louder/softer)
x – on rhythm slash represents muted slash
o – on rhythm slash represents single note slash
23rdDjin is offline   Reply With Quote
2 users say thanks:

Old 04-14-2011, 07:55 PM   #13
io Kukulcan
Protector of México

io Kukulcan's Avatar
 
Join Date: Aug 2009
Location: Northern California
Posts: 2,523
My Mood:
Awards Showcase
5k trainwreck 
Total Awards: 1
Default

Cool stuff! Thanks.

Also I've discovered if you use the Courier New font here, your tabs will line up properly.
io Kukulcan is offline   Reply With Quote
This user agrees. But then, who wouldn't, right?

Old 04-14-2011, 09:18 PM   #14
Lucifer Baphomet
Marxist Dictator

Lucifer Baphomet's Avatar
 
Join Date: Feb 1976
Posts: 14,905
My Mood:
Awards Showcase
5k trainwreck 
Total Awards: 1
Default

23 is a Weather Report fan....

cool
Lucifer Baphomet is offline   Reply With Quote

Old 04-14-2011, 10:47 PM   #15
23rdDjin
trust... it's everything

23rdDjin's Avatar
 
Join Date: Sep 2009
Location: Everville
Posts: 5,978
Awards Showcase
No Fear 28th 5k trainwreck 
Total Awards: 3
Default

i go where the music takes me. here i was looking for two distinctive basslines by two artists with nothing in common save for four strings.
23rdDjin is offline   Reply With Quote

Old 04-15-2011, 12:13 AM   #16
Phoenix Psaltery
Down to Five Toes

Phoenix Psaltery's Avatar
 
Join Date: Aug 2009
Rez Date: Feb 25, 2005
Location: South Dakota
Posts: 9,736
My Mood:
Awards Showcase
28th 5k trainwreck 
Total Awards: 2
Default

Quote:
Originally Posted by io Kukulcan View Post
This thread is for people to post tablatures, damnit!
How many rock bass players does it take to change a light bulb?
One, but the guitar player has to show him how to do it.

How many pop bass players does it take to change a light bulb?
None. The keyboard player does it with his left hand.

How many country bass players does it take to change a light bulb?
Five. One. Five. One.

How many reggae bass players does it take to change a light bulb?
Light bulb? We spent da' money on ganja, mon!

How many metal bass players does it take to change a light bulb?
Five -- 1 to change the light bulb and 4 to keep the guitarist from hogging all the light.

How many jazz bass players does it take to change a light bulb?
Forget the changes, lets just play!

How many acoustic bass players does it take to screw in a light bulb?
Two. One to do the job and another to complain that it's electric.



P2
Phoenix Psaltery is offline   Reply With Quote
This user laughed so hard that they peed a little:

Old 04-20-2011, 08:23 PM   #17
Axel Oakleaf
Member

Axel Oakleaf's Avatar
 
Join Date: Nov 2009
Location: Honolulu,Hawaii
Posts: 59
My Mood:
Default

Intro A
~~~~~~~
1 + 2 + 3 + 4 + 1 + 2 + 3 + 4 +
|-------------------------|-------------------------|
|-------------------------|-------------------------|
|-------------------------|-------------------------|
|-------------------------|-------------------------|
|-------------------------|-------------------------|
|-------2--2--2--2--2--2--|----2-----2--2--2--0--0--|
. . . . . . . . . . . .

1 + 2 + 3 + 4 + 1 + 2 + 3 + 4 +
|-------------------------|-------------------------|
|-------------------------|-------------------------|
|-------------------------|-------------------------|
|-------------------------|-------------------------|
|-------------------------|-------------------------|
|----2--2--2--2--2--2--2--|----2-----2--3--3--0--0--|
. . . . . . . . . . . . .

1 + 2 + 3 + 4 + 1 + 2 + 3 + 4 +
|-------------------------|-------------------------|
|-------------------------|-------------------------|
|-------------------------|-------------------------|
|-------------------------|-------------------------|
|-------------------------|-------------------------|
|-2--2--2--2--2--2--2--2--|----2-----2--2--2--0--0--|
. . . . . . . . . . . . . .

1 + 2 + 3 + 4 + 1 + 2 + 3 + 4 +
|-------------------------|-------------------------|
|-------------------------|-------------------------|
|-------------------------|-------------------------|
|-------------------------|-------------------6\----|
|----5--5--5--5--5--5-----|----4--4--4--4--4--4\----|
|-------------------------|-------------------------|
. . . . . . . . . . .


Intro B (w/ drums)
~~~~~~~
1 + 2 + 3 + 4 + 1 + 2 + 3 + 4 +
|-------------------------|-------------------------|
|-------------------------|-------------------------|
|-------------------------|-------------------------|
|----4--4--4--4--4--4--4--|----4-----4-----4--2--2--|
|----4--4--4--4--4--4--4--|----4-----4-----4--2--2--|
|----2--2--2--2--2--2--2--|----2-----2-----2--0--0--|


1 + 2 + 3 + 4 + 1 + 2 + 3 + 4 +
|-------------------------|-------------------------|
|-------------------------|-------------------------|
|-------------------------|-------------------------|
|----4--4--4--4--4--4--4--|----4-----4--5--5--2--2--|
|----4--4--4--4--4--4--4--|----4-----4--5--5--2--2--|
|----2--2--2--2--2--2--2--|----2-----2--3--3--0--0--|


1 + 2 + 3 + 4 + 1 + 2 + 3 + 4 +
|-------------------------|-------------------------|
|-------------------------|-------------------------|
|-------------------------|-------------------------|
|-4--4--4--4--4--4--4--4--|----4-----4-----4--2--2--|
|-4--4--4--4--4--4--4--4--|----4-----4-----4--2--2--|
|-2--2--2--2--2--2--2--2--|----2-----2-----2--0--0--|


1 + 2 + 3 + 4 + 1 + 2 + 3 + 4 +
|-------------------------|-------------------------|
|-------------------------|-------------------------|
|-------------------------|-------------------------|
|----5p-4-----2-----------|-------------2-----------|
|-------------------5p-4--|----5p-4-----------5p-4--|
|-0--------0-----0--------|-0--------0-----0--------|
. . . . . .


Verse 1
~~~~~~~
"Finally the hills..." etc.
|-------------------------|
|-------------------------|
|-------------------------|
|---(bass + drums only)---|
|-------------------------|
|-------------------------|


Chorus
~~~~~~
"Did you ever hear..." etc.
1 + 2 + 3 + 4 + 1 + 2 + 3 + 4 +
|-------------------------|-------------------------|
|-------------------------|-------------------------|
|-2-----------------------|-------------------------| Play
|-2--4--2--4-----4-----4--|----4-----4-----4-----4--| x3
|-0--4--2--4-----4-----4--|----4-----4-----4-----4--|
|----------2-----2-----2--|----2-----2-----2-----2--|


"Played, did you ever let in..."
1 + 2 + 3 + 4 + 1 + 2 + 3 + 4 +
|-------------------------|-------------------------|
|-------------------------|-------------------------|
|-4--4--4-----4--4-----4--|-------4-----------------|
|-2--2--2-----2--2-----2--|-------2-----------------|
|-2--2--2-----2--2-----2--|-------2-----------------|
|-0--0--0--0--0--0--0--0--|-0--0--0-----0--0--0--0--|
. . . . . . . .

"Did we get this far..."
1 + 2 + 3 + 4 + 1 + 2 + 3 + 4 +
|-------------------------|-------------------------|
|-------------------------|-------------------------|
|-2-----------------------|-------------------------| Play
|-2--4--2--4-----4-----4--|----4-----4-----4-----4--| x2
|-0--4--2--4-----4-----4--|----4-----4-----4-----4--|
|----------2-----2-----2--|----2-----2-----2-----2--|


"How blind can you be..."
1 + 2 + 3 + 4 + 1 + 2 + 3 + 4 +
|-------------------------|-------------------------|
|-------------------------|-------------------------|
|-------2-----------------|-------------------------|
|-2--4--2--4-----4-----4--|----4-----4-----4-----4--|
|-2--4-----4-----4-----4--|----4-----4-----4-----4--|
|-0--------2-----2-----2--|----2-----2-----2-----2--|


"Chose the long road..."
1 + 2 + 3 + 4 + 1 + 2 + 3 + 4 +
|-------------------------|-------------------------|
|-------------------------|-------------------------|
|-4--4--4-----4--4-----4--|-------4-----------------|
|-2--2--2-----2--2-----2--|-------2-----------------|
|-2--2--2-----2--2-----2--|-------2-----------------|
|-0--0--0--0--0--0--0--0--|-0--0--0-----0--0--0--0--|
. . . . . . . .

"Bye bye beautiful!"
|-------------------------|--------------------------|
|-------------------------|--------------------------|
|-------------------------|--------------------------|
|-5--4-----5--4-----5--4--|----5--4------------------|
|-5--4-----5--4-----5--4--|----5--4-----x-x-x--x-x-x-|
|-3--2-----3--2-----3--2--|----3--2-----x-x-x--x-x-x-|


"Bye bye beautiful!"
|-------------------------|--------------------------|
|-------------------------|--------------------------|
|-------------------------|----2---------------------| w/ slight variation
|-5--4-----5--4-----5--4--|----2--2------------------| 2nd and 3rd time
|-5--4-----5--4-----5--4--|----0--2-----x-x-x-x-x--x-|
|-3--2-----3--2-----3--2--|-------0-----x-x-x-x-x--x-|


Repeat Intro B, after which:

Verse 2
~~~~~~~
1 + 2 + 3 + 4 +
|-------------------------|
|-------------------------|
|-------------------------|
|-------------------------|
|-------------------2-----|
|-------------------0-----|


"Jacob's ghost for the girl in..."
1 + 2 + 3 + 4 + 1 + 2 + 3 + 4 +
|-------------------------|-------------------------|
|-------------------------|-------------------------|
|-------------------------|-------------------------|
|-------------------------|-------------------------|
|-4--4--4--4--4--4--4--4--|-4--4--4--4--2--2--2--2--|
|-2--2--2--2--2--2--2--2--|-2--2--2--2--0--0--0--0--|
. . . . . . . . . . . . . . . .

"White blindfold for the..."
1 + 2 + 3 + 4 + 1 + 2 + 3 + 4 +
|-------------------------|-------------------------|
|-------------------------|-------------------------|
|-------------------------|-------------------------|
|-------------------------|-------------2--2--2--2--|
|-4--4--4--4--4--4--4--4--|-4--4--4--4--0--0--0--0--|
|-2--2--2--2--2--2--2--2--|-2--2--2--2--------------|
. . . . . . . . . . . .

"Blind dead siblings walking..."
1 + 2 + 3 + 4 + 1 + 2 + 3 + 4 +
|-------------------------|-------------------------|
|-------------------------|-------------------------|
|-------------------------|-------------------------|
|-------------------------|-------------------------|
|-2--2--2--2--2--2--2--2--|-2--2--2--2--2--2--2--2--|
|-0--0--0--0--0--0--0--0--|-0--0--0--0--0--0--0--0--|
. . . . . . . . . . . . . . . .

"The dying earth..."
1 + 2 + 3 + 4 + 1 + 2 + 3 + 4 +
|-------------------------|-------------------------|
|-------------------------|-------------------------|
|-------------------------|-------------------------|
|-6--6--6-----6--6-----7--|----7--7-----7-----7-----|
|-4--4--4-----4--4-----5--|----5--5-----5-----5-----|
|-4--4--4-----4--4-----5--|----5--5-----5-----5-----|


"Noose around..."
1 + 2 + 3 + 4 + 1 + 2 + 3 + 4 +
|-------------------------|-------------------------|
|-------------------------|-------------------------|
|-------------------------|-------------------------|
|-------------------------|-------------------------|
|-4--4--4--4--4--4--4--4--|-4--4--4--4--------------|
|-2--2--2--2--2--2--2--2--|-2--2--2--2--0h-2--3p-0--|
. . . . . . . . . . . .
Axel Oakleaf is offline   Reply With Quote

Old 04-20-2011, 08:23 PM   #18
Axel Oakleaf
Member

Axel Oakleaf's Avatar
 
Join Date: Nov 2009
Location: Honolulu,Hawaii
Posts: 59
My Mood:
Default

"Heart eternity torn a-"
1 + 2 + 3 + 4 + 1 + 2 + 3 + 4 +
|-------------------------|-------------------------|
|-------------------------|-------------------------|
|-------------------------|-------------------------|
|-------------------------|-------------2--2--2--2--|
|-4--4--4--4--4--4--4--4--|-4--4--4--4--0--0--0--0--|
|-2--2--2--2--2--2--2--2--|-2--2--2--2--------------|
. . . . . . . . . . . .

"-part, so toll now the..."
1 + 2 + 3 + 4 + 1 + 2 + 3 + 4 +
|-------------------------|-------------------------|
|-------------------------|-------------------------|
|-------------------------|-------------------------|
|-------------------------|-------------------------|
|-2--2--2--2--2--2--2--2--|-2--2--2--2--2--2--2--2--|
|-0--0--0--0--0--0--0--0--|-0--0--0--0--0--0--0--0--|
. . . . . . . . . . . . . . . .

"Funeral bells..." "No need to die..."
1 + 2 + 3 + 4 + 1 + 2 + 3 + 4 +
|-------------------------|-------------------------|
|-------------------------|-------------------------|
|-------------------------|-------------------------|
|-7-----------------------|-------------------------|
|-5-----------------------|-------------------------|
|-5-----------------------|-------------------------|


Then play Chorus again, after which:
~~~~~~

Interlude
~~~~~~~~~
"Bye bye..."
1 + 2 + 3 + 4 + 1 + 2 + 3 + 4 + \
|-------------------------|-------------------------| |
|-------------------------|-------------------------| |
|-------------------------|-------------------------| |
|-5--4-----5--4-----5--4--|----5--4-----5-----4-----| |
|-5--4-----5--4-----5--4--|----5--4-----5-----4-----| |
|-3--2-----3--2-----3--2--|----3--2-----3-----2-----| |
|
> Play x2
"...bye bye..." |
1 + 2 + 3 + 4 + 1 + 2 + 3 + 4 + |
|-------------------------|-------------------------| |
|-------------------------|-------------------------| |
|-------------------------|-------------------------| |
|-5--4-----5--4-----5--4--|----5--4-----7-----5-----| |
|-5--4-----5--4-----5--4--|----5--4-----7-----5-----| |
|-3--2-----3--2-----3--2--|----3--2-----5-----3-----| /


"It's not the tree that forsakes the flower..."
1 + 2 + 3 + 4 + 1 + 2 + 3 + 4 + \
|-------------------------|-------------------------| |
|-------------------------|-------------------------| |
|-------------------------|-------------------------| |
|-3--------3--------3-----|----3--------------------| |
|-3--2-----3--2-----3--2--|----3--2-----2--2--2--2--| |
|-1--0-----1--0-----1--0--|----1--0-----0--0--0--0--| |
. . . . |
> Play x2
"But the flower..." etc. |
1 + 2 + 3 + 4 + 1 + 2 + 3 + 4 + |
|-------------------------|-------------------------| |
|-------------------------|-------------------------| |
|-------------------------|-------------------------| |
|-3--------3--------3-----|----3--------2--3--2-----| |
|-3--2-----3--2-----3--2--|----3--2-----0--1--0-----| |
|-1--0-----1--0-----1--0--|----1--0--------------3--| /
. . . .

1 + 2 + 3 + 4 + 1 + 2 + 3 + 4 +
|-------------------------|-------------------------|
|-------------------------|-------------------------|
|-------------------------|-------------------------|
|-3--------3--------3-----|----3--2-----------------|
|-3--2-----3--2-----3--2--|----3--2-----------------|
|-1--0-----1--0-----1--0--|----1--0-----------------|



Then there's a quiet bit, after which it is Chorus again, and finally:
~~~~~~

|-------------------------|--------------------------|
|-------------------------|--------------------------|
|-------------------------|--------------------------|
|-5--4-----5--4-----5--4--|----5--4------------------|
|-5--4-----5--4-----5--4--|----5--4-----x-x-x--x-x-x-|
|-3--2-----3--2-----3--2--|----3--2-----x-x-x--x-x-x-|



|-------------------------|--------------------------|
|-------------------------|--------------------------|
|-------------------------|--------------------------|
|-5--4-----5--4-----5--4--|----5--4------------------|
|-5--4-----5--4-----5--4--|----5--4------------------|
|-3--2-----3--2-----3--2--|----3--2------------------|

End!

Anyway it's

E
B
G
D
A
D
Axel Oakleaf is offline   Reply With Quote

Old 04-20-2011, 08:24 PM   #19
Axel Oakleaf
Member

Axel Oakleaf's Avatar
 
Join Date: Nov 2009
Location: Honolulu,Hawaii
Posts: 59
My Mood:
Default

Anyway it's this song.


Last edited by Axel Oakleaf; 04-20-2011 at 08:27 PM. Reason: typo
Axel Oakleaf is offline   Reply With Quote
One user says 'MMmmm. Pie':

Old 04-20-2011, 08:40 PM   #20
23rdDjin
trust... it's everything

23rdDjin's Avatar
 
Join Date: Sep 2009
Location: Everville
Posts: 5,978
Awards Showcase
No Fear 28th 5k trainwreck 
Total Awards: 3
Default

"embedding disabled", but hopping to youTube is no big deal.






hey! i just realized that i'll bet there was music in that video! i may have to go watch it again...
23rdDjin is offline   Reply With Quote

Old 04-29-2011, 03:39 PM   #21
Axel Oakleaf
Member

Axel Oakleaf's Avatar
 
Join Date: Nov 2009
Location: Honolulu,Hawaii
Posts: 59
My Mood:
Default

What's the difference between a violin and a Viola?

Who cares,neither is a guitar.

What is the difference between a savings bond and a drummer?

The savings bond matures and makes money.
Axel Oakleaf is offline   Reply With Quote

Old 04-29-2011, 08:00 PM   #22
Envoy Costagravas
Travels the world, calmly

Envoy Costagravas's Avatar
 
Join Date: Aug 2009
Posts: 5,441
My Mood:
Awards Showcase
Suave 28th 5k trainwreck 
Total Awards: 3
Default

Quote:
Originally Posted by Axel Oakleaf View Post
What's the difference between a violin and a Viola?

Who cares,neither is a guitar.
My wife's string quartet was doing a program at an elementary school. A kid asked that very question, and the smart-ass 1st violin immediately said "The viola burns longer." She just about killed him.

Quote:
What is the difference between a savings bond and a drummer?

The savings bond matures and makes money.
Speaking of death, I must kill you now.
__________________
Cheer up, beautiful people! This is where you get to make things right.
Envoy Costagravas is offline   Reply With Quote
2 users laughed. The question is: Are they laughing with you, or at you?:
This user agrees. But then, who wouldn't, right?

Old 04-29-2011, 11:37 PM   #23
Axel Oakleaf
Member

Axel Oakleaf's Avatar
 
Join Date: Nov 2009
Location: Honolulu,Hawaii
Posts: 59
My Mood:
Default

Quote:
Originally Posted by Envoy Costagravas View Post
My wife's string quartet was doing a program at an elementary school. A kid asked that very question, and the smart-ass 1st violin immediately said "The viola burns longer." She just about killed him.


Speaking of death, I must kill you now.
Sorry dude.

I saw those jokes on a metal forum i frequent.
Axel Oakleaf is offline   Reply With Quote
This user laughed so hard that they peed a little:
Reply

Bookmarks

Thread Tools Search this Thread
Search this Thread:

Advanced Search
Display Modes

Posting Rules
You may not post new threads
You may not post replies
You may not post attachments
You may not edit your posts

BB code is On
Smilies are On
[IMG] code is On
HTML code is Off

Forum Jump



All times are GMT -4. The time now is 09:43 AM.


vBulletin skins developed by: eXtremepixels
Powered by vBulletin® Version 3.8.7
Copyright ©2000 - 2020, vBulletin Solutions, Inc.
Second Life® and Linden Lab® are trademarks of Linden Research, Inc.
Second Citizen MK II Forums are not affiliated with or sponsored by Linden Research.
© 2009 - 2011 Second Citizen MKII [SC MKII]
| Home | Register | FAQ | Members List | Calendar | Today's Posts | Search | New Posts |